Ian Gillan Fan Site
Lyrics Deep Purple. Тексты песен Deep Purple.

Perfect Strangers

(Blackmore/Gillan/Glover)
From "Perfect Strangers", 1984
w 8x e e e e e e e e e e e e e e
G---||-------r---||--||--------------------------|----------------------
D---||*--4:--e--*||--||--------------------------|----------------------
A---||*--4:--s--*||--||--3--5--5--5--5--5--5--5--|--5--5--5--5--5--5----
E---||-------t---||--||--------------------------|----------------------


e e e e e e e e e e e e e e e e e e e
G---------|--------------------------|--------------------------|-------
D---------|--------------------------|--------------------------|-------
A---3--5--|--------------------------|-----------------------1--|--3----
E---------|--1--3--3--3--3--3--3--3--|--3--3--3--3--3--1--3-----|-------


e e e e e e e e e e e e e e e e e e e e
G------------------------|--------------------------|-------------------
D------------------------|--------------------------|-------------------
A---5--5--5--5--5--5--5--|--5--5--5--5--5--5--3--5--|-------------------
E------------------------|--------------------------|--1--3--3--3--3----


e e e e e e e e e e e e e e e e e e e
G------------|--------------------------|--------------------------|----
D------------|--------------------------|--------------------------|----
A------------|-----------------------1--|--3--5--5--5--5--5--5--5--|----
E---3--3--3--|--3--3--3--3--3--1--3-----|--------------------------|----


e e e e e e e e e e e e e e e e e e e e
G---------------------------|--------------------------|----------------
D---------------------------|--------------------------|----------------
A---5--5--5--5--5--5--3--5--|--------------------------|----------------
E---------------------------|--1--3--3--3--3--3--3--3--|--3--3--3--3----


e e e e e e e e e e e e e e e e e e e e
G---------------|--------------------------|----------------------------
D---------------|--------------------------|----------------------------
A------------1--|--------------------------|--------------3-------------
E---3--1--3-----|--3--5--5--5--5--5--5--5--|--5--5--3--5-----5--3--5----


e e e e e e e e e e e e e e e e e e e
G---|--------------------------|--------------------------|-------------
D---|--------------------------|--------------------------|-------------
A---|--------------------------|--------------3-----------|-------------
E---|--5--5--5--5--5--5--5--5--|--5--5--3--5-----5--3--5--|--5--5--5----


e e e e e e e e e e e e e e e e e e e e
G------------------|--------------------------|-------------------------
D------------------|--------------------------|-------------------------
A------------------|--------------3-----------|-------------------------
E---5--5--5--5--5--|--5--5--3--5-----5--3--5--|--5--5--5--5--5--5--5----


e e e e e e e e e H e e Q e e e e e
G------|--------------------------|-----------|--------------------|----
D------|--------------------------|-----------|--------------------|----
A------|--------------------------|-----0--1--|--3-----3-----3-----|----
E---3--|--5--3--5--3--5--3--5--3--|--1--------|-----3-----3-----3--|----


Q e e e e e h e e e e Q e e e e e Q e
G---------------------|-----------------|--------------------|----------
D---------------------|-----------------|--------------------|----------
A---5-----5-----5-----|-----------1--3--|--5-----5-----5-----|--3-------
E------5-----5-----5--|--3--1--3--------|-----5-----5-----5--|-----3----


e e e e e Q e Q e Q e Q e Q e Q e Q
G---------------|--------------|--------------|--------------|----------
D---------------|--------------|--------------|--------------|----------
A---3-----3-----|--------------|--------------|--------------|----------
E------3-----3--|--3--3--3--3--|--3--3--3--3--|--3--3--3--3--|--3--3----


h e s s e e s s e s s e e s s e s s
G---r--|-----------------------------------|----------------------------
D---e--|-----7--7--7-----8--8--8--5--5--5--|--5:-----7--7--7------------
A---s--|--0-----------0--------------------|--4:--0-----------8--8------
E---t--|-----------------------------------|----------------------------


e s s e s s e e e s s e e s s e s s e
G---------------------------|-------------------------------------------
D------7--7--7--5--5--5--5--|--4:-----7--7--7-----8--8--8--5--5--5------
A---8-----------------------|--4:--0-----------0------------------------
E---------------------------|-------------------------------------------


e s s e s s e s s e s s e e e s s
G---|------------------------------------------------|------------------
D---|--5:-----7--7--7-----------7--7--7--5--5--5--5--|--4:-----7--7-----
A---|--4:--0-----------8--8--8-----------------------|--4:--0-----------
E---|------------------------------------------------|------------------


e e s s e s s e e s s e s s e s s e s
G---------------------------|-------------------------------------------
D---7-----8--8--8--5--5--5--|--5:-----7--7--7-----------7--7--7--5------
A------0--------------------|--4:--0-----------8--8--8------------------
E---------------------------|-------------------------------------------


s e e e s s e e s s e s s e e s s
G------------|---------------------------------------|------------------
D---5--5--5--|--4:-----7--7--7-----8--8--8--5--5--5--|--5:-----7--7-----
A------------|--4:--0-----------0--------------------|--4:--0-----------
E------------|---------------------------------------|------------------


e s s e s s e s s e s s e s s e s s e
G---------------------------------------|-------------------------------
D---7-----------7--7--7--5--5--5--3--3--|--4:--3--2--2--2--0--0--0------
A------8--8--8--------------------------|--4:---------------------------
E---------------------------------------|-------------------------------


s s e e e e e e e e e e e e e e e e e e
G---------------|--------------------------|----------------------------
D---------------|--------------------------|----------------------------
A---3--3--3--1--|--3--5--5--5--5--5--5--5--|--5--5--5--5--5--5--3--5----
E---------------|--------------------------|----------------------------


e e e e e e e e e e e e e e e e e e e
G---|--------------------------|--------------------------|-------------
D---|--------------------------|--------------------------|-------------
A---|--------------------------|-----------------------1--|--3--5--5----
E---|--1--3--3--3--3--3--3--3--|--3--3--3--3--3--1--3-----|-------------


e e e e e e e e e e e e e e e e e e e e
G------------------|--------------------------|-------------------------
D------------------|--------------------------|-------------------------
A---5--5--5--5--5--|--5--5--5--5--5--5--3--5--|-------------------------
E------------------|--------------------------|--1--3--3--3--3--3--3----


e e e e e e e e e e e e e e e e e e e
G------|--------------------------|--------------------------|----------
D------|--------------------------|--------------------------|----------
A------|-----------------------1--|--3--5--5--5--5--5--5--5--|--5--5----
E---3--|--3--3--3--3--3--1--3-----|--------------------------|----------


e e e e e e e e e e e e e e e e e e e e
G---------------------|--------------------------|----------------------
D---------------------|--------------------------|----------------------
A---5--5--5--5--3--5--|--------------------------|----------------------
E---------------------|--1--3--3--3--3--3--3--3--|--3--3--3--3--3--1----


e e e e e e e e e e e e e e e e e e e
G---------|--------------------------|--------------------------|-------
D---------|--------------------------|--------------------------|-------
A------1--|--------------------------|--------------3-----------|-------
E---3-----|--3--5--5--5--5--5--5--5--|--5--5--3--5-----5--3--5--|--5----


e e e e e e e e e e e e e e e e e e e e
G------------------------|--------------------------|-------------------
D------------------------|--------------------------|-------------------
A------------------------|--------------3-----------|-------------------
E---5--5--5--5--5--5--5--|--5--5--3--5-----5--3--5--|--5--5--5--5--5----


e e e e e e e e e e e e e e e e e e e
G------------|--------------------------|--------------------------|----
D------------|--------------------------|--------------------------|----
A------------|--------------3-----------|--------------------------|----
E---5--5--5--|--5--5--3--5-----5--3--5--|--5--5--5--5--5--5--5--3--|----


e e e e e e e e H e e Q e e e e e Q e
G---------------------------|-----------|--------------------|----------
D---------------------------|-----------|--------------------|----------
A---------------------------|-----0--1--|--3-----3-----3-----|--5-------
E---5--3--5--3--5--3--5--3--|--1--------|-----3-----3-----3--|-----5----


e e e e h e e e e Q e e e e e Q e e e
G---------------|-----------------|--------------------|----------------
D---------------|-----------------|--------------------|----------------
A---5-----5-----|-----------1--3--|--5-----5-----5-----|--3-----3-------
E------5-----5--|--3--1--3--------|-----5-----5-----5--|-----3-----3----


e e e Q e Q e Q e Q e Q e Q e Q h
G---------|--------------|--------------|--------------|--------r--|----
D---------|--------------|--------------|--------------|--------e--|----
A---3-----|--------------|--------------|--------------|--------s--|----
E------3--|--3--3--3--3--|--3--3--3--3--|--3--3--3--3--|--3--3--t--|----


e s s e e s s e s s e e s s e s s e s
G------------------------------------|----------------------------------
D------------------------------------|--5:------------------------------
A------7--7--7-----8--8--8--5--5--5--|--4:-----7--7--7-----------7------
E---0-----------0--------------------|------0-----------8--8--8---------


s e s s e e e s s e e s s e s s e
G---------------------|---------------------------------------|---------
D---------------------|--4:-----------------------------------|--5:-----
A---7--7--5--5--5--5--|--4:-----7--7--7-----8--8--8--5--5--5--|--4:-----
E---------------------|------0-----------0--------------------|---------


e s s e s s e s s e s s e e e s s e e
G---------------------------------------------|-------------------------
D---------------------------------------------|--4:---------------------
A------7--7--7-----------7--7--7--5--5--5--5--|--4:-----7--7--7---------
E---0-----------8--8--8-----------------------|------0-----------0------


s s e s s e e s s e s s e s s e s s e
G---------------------|-------------------------------------------------
D---------------------|--5:---------------------------------------------
A---8--8--8--5--5--5--|--4:-----7--7--7-----------7--7--7--5--5--5------
E---------------------|------0-----------8--8--8------------------------


e e s s e e s s e s s e e s s e s
G------|---------------------------------------|------------------------
D------|--4:-----------------------------------|--5:--------------------
A---5--|--4:-----7--7--7-----8--8--8--5--5--5--|--4:-----7--7--7--------
E------|------0-----------0--------------------|------0-----------8-----


s e s s e s s e s s e s s e s s e s s
G---------------------------------|-------------------------------------
D---------------------------------|--4:---------------------------------
A---------7--7--7--5--5--5--3--3--|--4:--3--2--2--2--0--0--0------------
E---8--8--------------------------|---------------------------3--3------


e e e s s e e s s e s s e e s s e s
G---------|-----------------------------------|-------------------------
D---------|-----------------------------------|--5:---------------------
A---------|-----7--7--7-----8--8--8--5--5--5--|--4:-----7--7--7---------
E---3--1--|--0-----------0--------------------|------0-----------8------


s e s s e s s e e e s s e e s s e s s
G------------------------------|----------------------------------------
D------------------------------|--4:------------------------------------
A---------7--7--7--5--5--5--5--|--4:-----7--7--7-----8--8--8--5--5------
E---8--8-----------------------|------0-----------0---------------------


e e s s e s s e s s e s s e e e s
G------|------------------------------------------------|---------------
D------|--5:--------------------------------------------|--4:-----------
A---5--|--4:-----7--7--7-----------7--7--7--5--5--5--5--|--4:-----7-----
E------|------0-----------8--8--8-----------------------|------0--------


s e e s s e s s e e s s e s s e s s e
G------------------------------|----------------------------------------
D------------------------------|--5:------------------------------------
A---7--7-----8--8--8--5--5--5--|--4:-----7--7--7-----------7--7--7------
E---------0--------------------|------0-----------8--8--8---------------


s s e e e s s e e s s e s s e e s
G---------------|---------------------------------------|---------------
D---------------|--4:-----------------------------------|--5:-----------
A---5--5--5--5--|--4:-----7--7--7-----8--8--8--5--5--5--|--4:-----7-----
E---------------|------0-----------0--------------------|------0--------


s e s s e s s e s s e s s e s s e s s
G------------------------------------------|----------------------------
D------------------------------------------|--4:------------------------
A---7--7-----------7--7--7--5--5--5--3--3--|--4:--3--2--2--2--0--0------
E---------8--8--8--------------------------|----------------------------


e s s e e e s s e e s s e s s e e s
G------------------|-----------------------------------|----------------
D------------------|-----------------------------------|--5:------------
A---0--------------|-----7--7--7-----8--8--8--5--5--5--|--4:-----7------
E------3--3--3--1--|--0-----------0--------------------|------0---------


s e s s e s s e s s e e e s s e e s s
G---------------------------------------|-------------------------------
D---------------------------------------|--4:---------------------------
A---7--7-----------7--7--7--5--5--5--5--|--4:-----7--7--7-----8--8------
E---------8--8--8-----------------------|------0-----------0------------


e s s e e s s e s s e s s e s s e e
G---------------|------------------------------------------------|------
D---------------|--5:--------------------------------------------|------
A---8--5--5--5--|--4:-----7--7--7-----------7--7--7--5--5--5--5--|------
E---------------|------0-----------8--8--8-----------------------|------


e s s e e s s e s s e e s s e s s e
G----------------------------------------|------------------------------
D---4:-----------------------------------|--5:--------------------------
A---4:-----7--7--7-----8--8--8--5--5--5--|--4:-----7--7--7--------------
E-------0-----------0--------------------|------0-----------8--8--8-----


s s e s s e e e s s e e s s e s s e
G------------------------|---------------------------------------|------
D------------------------|--4:-----------------------------------|------
A---7--7--7--5--5--5--5--|--4:-----7--7--7-----8--8--8--5--5--5--|------
E------------------------|------0-----------0--------------------|------


e s s e s s e s s e s s e s s e s s
G----------------------------------------------------|------------------
D---5:-----------------------------------------------|--4:--------------
A---4:-----7--7--7-----------7--7--7--5--5--5--3--3--|--4:--3--2--2-----
E-------0-----------8--8--8--------------------------|------------------


e s s e s s e e e e H
G---------------------------|-----r--r--||------------------------------
D---------------------------|-----e--e--||------------------------------
A---2--0--0--0--------------|-----s--s--||------------------------------
E---------------3--3--3--1--|--0--t--t--||------------------------------

 


=============================================
== TABLATURE EXPLANATION ==
=============================================

---------- ---------- ----t---
----5h8--- Hammeron ----(8)--- Ghost ----6--- Tap
---------- ---------- Note --------
----5p8--- Pulloff ---------- --------

---------- ---------- -----p--
----5/8--- Slide Up -----x---- Dead -----7-- Pop
---------- ---------- Note --s-----
----5\8--- Slide Down ---------- --5----- Slap

---------- ||------|| Repeat --------
----5~~~-- Vibrato ||*----*|| ---5^--- Bend
---------- ||*----*|| --------
---------- ||------|| --------

---------- ---------- --------
-4:------- Time ---------- --------
-4:------- Signature ---------- --------
---------- ---------- --------

Rhythm:
w = whole note W = dotted whole
h = half note H = dotted half
q = quarter note Q = dotted quarter
e = eighth note E = dotted eighth
s = sixteenth note S = dotted sixteenth
t = 32nd note T = dotted 32nd
x = 64th note X = dotted 64th

    спонсор новостей

    ///

Rambler's Top100

Все права принадлежат Gillan.ru 2008 © 2017 - Неофициальный Российский сайт.