Ian Gillan Fan Site
Lyrics Deep Purple. Тексты песен Deep Purple.

Lazy


(Blackmore/Gillan/Glover/Lord/Paice)

Key:
   >>      Bend up two semi-tones.
  3==5     Slide from 3 to 5.
   ==9     Slide up to 9 from nowhere in particular.
   3_5     Hammer on 3 to 5.
   5_3     Pull off 5 to 3.
   tr.     Trill (Same as 6_7_6_7_6_7 played rapidly)   6~7
   vib.    Vibrato.
"Bar" lines divide the solo into riffs rather than bars.
Intro solo:
                                 >>    >> 
|---------------------------------|-----------------3----------------------| 
|------------------------------6--|--6--6-3-6-3---3---3--------------------| 
|--------3---5-3-----3---5-3------|-------------6---------6_5_3----5---3---| 
|---3==5---5-----5-3---5-----5----|------------------------------5---5---5-| 
|---------------------------------|----------------------------------------| 
|---------------------------------|----------------------------------------|

           >>                                  >>               >>         >> 
|------6-8-6-8---|----6-8-9_8_6---8---6-|----10-10-9-8-10---|---------------| 
|----8---------8-|--8-----------8---8---|--8--------------8-|-11-11-8-11----| 
|--7-------------|----------------------|-------------------|------------10-| 
|----------------|----------------------|-------------------|---------------| 
|----------------|----------------------|-------------------|---------------| 
|----------------|----------------------|-------------------|---------------|

                               >>  >>                            >> 
|------------------------------|---------------3----------------------------| 
|----------------------------6-|-6-6-3-6-3---3---3--------------------------| 
|------3---5-3-----3---5-3-----|-----------6-------6-5-3-------6------------| 
|-3==5---5-----5-3---5-----5---|-------------------------5-3-5--------------| 
|------------------------------|--------------------------------------------| 
|------------------------------|--------------------------------------------|

|----------------------------|----------------------------------------------| 
|----------------------------|----------------------------------------------| 
|----------------------------|----------------------------------------------| 
|------3---5-3-----3---5-3---|----------------------3-----------------------| 
|-4==5---5-----4-5---5-----5-|-4==5-4---4-3---3-4-5---5_4_3---3-------------| 
|----------------------------|--------6-----6---------------6---------------|
 
    >> >> >> >>                                                                >> 
|------------|-----------------------|-----3---------------------|-----------10| 
|------------|-----------------------|---3---6_5_3---------------|-----8---8---|  
|-5--5--5--5-|-5_6_5_3---3---5_3---3-|-6-----------6_5_3---5---3-|-==9---9-----| 
|------------|---------5---5-----5---|-------------------5---5---|-------------| 
|------------|-----------------------|---------------------------|-------------| 
|------------|-----------------------|---------------------------|-------------|

               tr.                                                  vib. 
|-10-8-6---8-6~7---------|---------------------------------------------------| 
|--------8---------6-8-8-|-8_9_8_6---6--8_9_8_6---6--8_9_8_6---6--8----------| 
|----------------7-------|---------7------------7------------7---------------| 
|------------------------|---------------------------------------------------| 
|------------------------|---------------------------------------------------| 
|------------------------|---------------------------------------------------|

          >>          >> 
|-6---8-8-8-6---6-8---| 
|---8---------8-------| 
|-------------------5-| 
|---------------------| 
|---------------------| 
|---------------------|

|---6-8-9_8_6---8-6-9-8-|-6-8-9-8-|---6-8_6-8_6---|-6-8_9_8_6---6-8_9_8_6---| 
|-8-----------8---------|---------|-8-----------8-|-----------8-----------8-| 
|-----------------------|---------|---------------|-------------------------| 
|-----------------------|---------|---------------|-------------------------| 
|-----------------------|---------|---------------|-------------------------| 
|-----------------------|---------|---------------|-------------------------|
 
                      >>                                                vib. 
|---8_6-----------|---------------------------|-----3-----------------------| 
|-8-----8-6-------|---------------------------|---3---6-3-------------------| 
|-----------7-5-3-|-5-3---5-3-----3---5_3---3-|-6---------6-5-3---3-5-5-----| 
|-----------------|-----5-----5-3---5-----5---|-----------------5-----------| 
|-----------------|---------------------------|-----------------------------| 
|-----------------|---------------------------|-----------------------------|

|---------------------|-------------| 
|-3-------------------|-------------| 
|---5-3---5---5_3---3-|---5_3-------| 
|-------5---5-----5---|-5-----5-3---| 
|---------------------|-----------5-| 
|---------------------|-------------|

    спонсор новостей

    сколько стоит 1 кг алюминия ///

Rambler's Top100

Все права принадлежат Gillan.ru 2008 © 2017 - Неофициальный Российский сайт.